Fortunate Tab - Cartel






Hey umm just did this 5 minutes ago and i thought i would tab it out just to give a 
idea of what this song does *NOT INCLUDE THE BRIDGE* 

Song:The Fortunate
Band:Cartel
Album:Cartel due to come out some time in august
Tuning:Drop Db (DbAbDbGbBbEb)

VERSE
   PM
-------------------|
-------------------|
-------------------|
---77-77----0-44---|
---55---55--0-22---|
-------------------|


PRE CHORUS

-------------------|
-------------------|
-------------------|
-6~-5~-------------|
-6~-5~-------------|
-6~-5~-------------|

CHORUS
--------------------------------------------------------|
--------------------------------------------------------|
--7-7---------------4-4-4-4--7-7------------------------|
--7-7-5-5-4-2-2-2-2-4-4-4-4--7-7-5-5-4-2-2-2-2-0-0-0-0--|
--5-5-5-5-4-2-2-2-2-2-2-2-2--5-5-5-5-4-2-2-2-2-0-0-0-0--|
------5-5-4-2-2-2-2--------------5-5-4-2-2-2-2-0-0-0-0--|


Outro 
------------------
------------------
------------------
-5557999/---------
-5557999/---------
-5557999/---------

Ill update it as soon as i feel like tabbing the rest

KEY
~ let ring
PM Palm Mute
/ Slide down 






Like us on Facebook