Honestly Bass Tab - Cartel






Tabbed By : Xcrimson_ghostX
e-mail: invisibleXman900@aim.com

Tuning: standard

im surprised noone tabbed this yet, since Cartel is starting to get a lot of recognition.

intro/verse/prechorus/outro
G|--------------------------------|
D|--------------------------------| x6
A|--------44-33-------4-4-33h444--|
E|--22-44-------22-44-------------|

prechorus
G|---------------------|
D|---------------------| x1
A|------------------4--|
E|--6--4--2---6--4-----|

chorus x1
G|-----------------------------------------------------------------------------|
D|-----------------------------------------------------------------------------|
A|--44444444444444-------------------------------------------------------------|
E|-----------------666-22222222222222-444-66666666-44444444-22222222-44444444--|

postchorus x2
verse x4
prechorus x1
chorus x2

bridge    x1                                 x4
G|---------------------------------|-------------------|
D|---------------------------------|-------------------|
A|--2h444-2h444-2h444-2h444-2h442--|----4-46-6---------|
E|-------------------------------3-|-6-6------2222222--|

G|---------------------|
D|---------------------|
A|--4------------------|
E|-----0--2--3333333---|

chorus x2
outro x2


| /  slide up
|   slide down
| h  hammer-on
| p  pull-off
| ~  vibrato
| +  harmonic
| x  Mute note
===============================================================================






Like us on Facebook