Q (ver2) Tab - Cartel






Q - Cartel
Tabbed by: Brennan Caroline
Email: brennan-caroline@hotmail.com

Tuning: Drop D

^ (Palm Mute)

  (0:01 - 0:12) x2
e|-----------------------------------------------------------------------------------|
b|----------------------------------------------------------------------2nd Time-----|
g|-8-8-8---------------------------8-8-8-------------/-/-/-/-/-/-/------No P Mute----|
e|-8-8-8-6-6-6-6-6-6-6-6-6-6-6-6--8-8-8--6-6-6-6-6-6-6-6-6-6-6-6---------------------|
a|-6-6-6-6-6-6-6-6-6-6-6-6-6-6-6--6-6-6--6-6-6-6-6-6-6-6-6-6-6-6---------------------|
e|-------6-6-6-6-6-6-6-6-6-6-6-6----------6-6-6-6-6-6-6-6-6-6-6-6--------------------|
     ^  ^  ^ ^  ^  ^  ^ ^  ^  ^  ^  ^ ^  ^  ^    ^  ^  ^    ^  ^  ^  ^  ^  ^ ^  ^  ^  ^  ^ ^

  (0:13 - 0:23)
e|-----------------------------------------------------------------------------------|
b|-----------------------------------------------------------------------------------|
g|---------------------------------------8--8-8-8-8-8-8------------------------------|
d|-10-10-8--8--5-5-5-5--6-6--10--10-8--8--8-8-8-8-8-8---10-10-8--8-5-5-5-5-6666------|
a|-10-10-8--8--5-5-5-5--6-6--10--10-8--6--6-6-6-6-6-6---10-10-8--8-5-5-5-5-6666------|
e|-10-10-8--8--5-5-5-5--6-6--10--10-8------------------- 10-10-8--8-5-5-5-5-6666-----|

  (0:24 - 0:38)
e|---------------------------------------------------------------------------------|
b|---------------------------------------------------------------------------------|
g|------------(88888888888888888888888888888888---)--------------------------------|
d|-88888888--(88888888888888888888888888888888-x2)---------------------------------|
a|-88888888--(66666666666666666666666666666666---)---------------------------------|
e|-88888888------------------------------------------------------------------------|

  (0:39 - 0:57) x3
e|-----------------------------------------------------------------------------------|
b|-----------------------------------------------------------------------------------|
g|-8-8-8---------------------------8-8-8-------------/-/-/-/-/-/-/------3rd Time-----|
d|-8-8-8-6-6-6-6-6-6-6-6-6-6-6-6--8-8-8--6-6-6-6-6-6-6-6-6-6-6-6-----No P Mute-------|
a|-6-6-6-6-6-6-6-6-6-6-6-6-6-6-6--6-6-6--6-6-6-6-6-6-6-6-6-6-6-6---------------------|
e|-------6-6-6-6-6-6-6-6-6-6-6-6----------6-6-6-6-6-6-6-6-6-6-6-6--------------------|
     ^  ^ ^  ^  ^ ^  ^  ^  ^  ^  ^ ^  ^  ^  ^    ^  ^  ^    ^  ^  ^  ^  ^ ^  ^  ^  ^  ^  ^ ^

  (0:58 - 1:10)
e|----------------------------------------------------------------------------------|
b|----------------------------------------------------------------------------------|
g|--------------------------------------8--8-8-8-8-8-8------------------------------|
d|10-10-8--8--5-5-5-5--6-6--10--10-8--8--8-8-8-8-8-8--10-10-8--8-5-5-5-5-6666-------|
a|10-10-8--8--5-5-5-5--6-6--10--10-8--6--6-6-6-6-6-6--10-10-8--8-5-5-5-5-6666-------|
e|10-10-8--8--5-5-5-5--6-6--10--10-8------------------ 10-10-8--8-5-5-5-5-6666------|

  (1:11 - 1:42)
e|----------------------------------------------------------------------------------|
b|-----------------------------------------------------End on-----------------------|
g|------------(88888888888888888888888888888888---)----8~~~~------------------------|
d|-88888888--(88888888888888888888888888888888-x2)----8~~~~-------------------------|
a|-88888888--(66666666666666666666666666666666---)----6~~~~-------------------------|
e|-88888888-------------------------------------------------------------------------|

  (1:43 - 1:55) x2
e|-----------------------------------------------------------------------------------|
b|---------------------------------------------------------------------2nd Time------|
g|-8-8-8---------------------------8-8-8------------/-/-/-/-/-/-/------No P Mute-----|
d|-8-8-8-6-6-6-6-6-6-6-6-6-6-6-6--8-8-8-6-6-6-6-6-6-6-6-6-6-6-6----------------------|
a|-6-6-6-6-6-6-6-6-6-6-6-6-6-6-6--6-6-6-6-6-6-6-6-6-6-6-6-6-6-6----------------------|
e|-------6-6-6-6-6-6-6-6-6-6-6-6---------6-6-6-6-6-6-6-6-6-6-6-6---------------------|
     ^  ^ ^  ^  ^ ^  ^  ^  ^  ^  ^  ^ ^  ^  ^    ^  ^  ^   ^ ^  ^  ^  ^  ^ ^  ^  ^  ^  ^ ^

  (1:56 - 2:21) x2
e|-----------------------------------------------------------------------------------|
b|-----------------------------------------------------------------------------------|
g|-8888888888888888888888888888888888888888888888888888888888888888------------------|
d|-8888888888888888888888888888888888888888888888888888888888888888------------------|
a|-6666666666666666666666666666666666666666666666666666666666666666------------------|
e|-----------------------------------------------------------------------------------|

 (2:22 - 2:34) x2
e|---6--------6--------6--------6--------6--------6--------6--------6------------|
b|-4---4-4--4---4-4--4---4-4--4---4-4--4---4-4--4---4-4--4---4-4--4---4-4--------|
g|-------------------------------------------------------------------------------|
d|-------------------------------------------------------------------------------|
a|-------------------------------------------------------------------------------|
e|-------------------------------------------------------------------------------|

Fade to A






Like us on Facebook