Diarrhea Of The Mouth Bass Tab - Cattle Decapitation






Band: Cattle Decapitation
Album: Homovore
Song: Diarrhea of the Mouth
Transcrfromadyingfetus@aol.com

/  - slide up to           - slide down to       
h  - hammer on           b  - Bend
() - ghost note, sustained note           
             


Tunning E A D G

|-----4bh--------------4bh---------4b-------------------------------|
|-------------3bh-------------3-------------------------------------| x2
|-------------------------------------------------------------------|
|-3-3-----3-3------3-3------3---3-----------------------------------|
 

|-------------------------------------------------------------------|
|-------------------------------------------------------------------| x4
|-------------------------------------------------------------------|
|-3-0-4-0--3-0-0-0-4-0--3-0-4-0--3-0-0-0-4-0------------------------|
  

|-----------------------------------------------------|
|-----------------------------------------------------| x2
|-----------------------------------------------------|
|-0-1-0-1--3-3-5-(5)---0-1-0-1--3-3-5-(5)-------------|


You are what you eat!! You are what you s**t......
|-------------------------------------------------------------------|
|-------------------------------------------------------------------|
|-2-----------------------------------------------------------------| x2
|-----0-0-0-5---0-0-0-3---0-0-0-0-1-0-1-----------------------------|

|----------------|
|----------------|
|--2-------------|
|----------------|

ĂŽnscrie-te la newsletter


Like us on Facebook