Future In The Past Tab - Chickenfoot






Chickenfoot - "Future in the Past"
From Chickenfoot Debut album
Drop D tuning
tabbed by jjhand 


The end of this song reminds me of "Rise Today" by Alter Bridge, 
but the middle is very funky and random. Plenty of soloing from
Satch to learn too, so let me know if anything seems off. 

Please rate or comment. Thanks!

Acoustic intro chords:  DADGBE

                  D     000232
                  Dsus4 000233
                  Cadd9 x32033
                  G     x20033

  
Intro Electric Part, with Acoustic strumming indicated chords 

   D           sus4 sus4        Cadd9
e|------------2-3-2-3---3-3-3-|------------3-3-3--3-3-3--|
B|-------3----3-3-3-3---3-3-3-|------------3-3-3--3-3-3--|
G|-------2----2-2-2-2---2-2-2-|-------0----0-0-0--0-0-0--|
D|-------0----0-0-0-0---0-0-0-|----2-------2-2-2--2-2-2--|
A|----------------------------|-3----------3-3-3--3-3-3--|
D|-0--------------------------|--------------------------|

   G                            Cadd9
e|------------3-3-3-3---3-3-3-|------------3-3-3-3-3-3-------|
B|------------3-3-3-3---3-3-3-|------------3-3-3-3-3-3-------|
G|------0-----0-0-0-0---0-0-0-|-------0----0-0-0-0-0-0-------|
D|-0----0-----0-0-0-0---0-0-0-|-2-----2----2-2-2-2-2-2-2b3r2-|
A|-2----------2-2-2-2---2-2-2-|-3--3--3----3-3-3-3-3-3-------|
D|----------------------------|------------------------------|

   D           sus4 sus4        Cadd9
e|------------2-3-2-3---3-3-3-|------------3-3-3-----------|
B|-------3----3-3-3-3---3-3-3-|------------3-3-3-----------|
G|-------2----2-2-2-2---2-2-2-|-------0----0-0-0-----------|
D|-0-----0----0-0-0-0---0-0-0-|----2-------2-2-2-7--5/75--|
A|-0--------------------------|-3----------3-3-3-5--3/53--|
D|-0--------------------------|----------------------------|

   G                            Cadd9
e|------------3-3-3-3---3-3-3-|------------3-3-3-3-3-3------|
B|------------3-3-3-3---3-3-3-|------------3-3-3-3-3-3------|
G|------0-----0-0-0-0---0-0-0-|-------0----0-0-0-0-0-0------|
D|-0----0-----0-0-0-0---0-0-0-|----2-------2-2-2-2-2-2------|
A|-2----------2-2-2-2---2-2-2-|-3----------3-3-3-3-3-3--x-x-|
D|----------------------------|-------------------------x-x-|


Overdub Intro part, play with Intro Electric part -
e|-------------|--------------|-------------|-------------|
B|-------------|--------------|-------------|-------------|
G|-------------|------5NH-----|-------------|-------------|
D|-------------|---------4NH--|-5NH---------|-------------|
A|-------------|--------------|-------------|---------5NH-|
D|-------------|--------------|-------------|-------------|
   
e|-------------|--------------|-------------|-------------|
B|-------------|--------------|-------------|-------------|
G|-------------|------5NH-----|-------------|-------------|
D|-5NH---------|---------4NH--|-5NH---------|-------------|
A|-------------|--------------|-------------|-------------|
D|-------------|--------------|-------------|-------------|




Verse 1: Light Distortion
e|-------------------------------|-------------------------------|
B|-3-------3-------3-3------3-3--|-2-------2-------2-2------2-2--|
G|-4-------4-------4-4------4-4--|-2-------2-------2-2------2-2--|
D|-4---x-x-4---x-x-4-4--x-x-4-4--|-2---x-x-2---x-x-2-2--x-x-2-2--|
A|-2---x-x-2---x-x-2-2--x-x-2-2--|-0---x-x-0---x-x-0-0--x-x-0-0--|
D|-------------------------------|-------------------------------|
 "I say oh,           watching them fall           never heard it"

                                   ! Lead part starts here
e|-------------------------------|-------------------------------|
B|-------------------------------|-------------------------------|
G|-------------------------------|-------------------------------|
D|-5-------5-------5-5------5-5--|-5-------5-------5-5------5-5--|
A|-5---x-x-5---x-x-5-5--x-x-5-5--|-5---x-x-5---x-x-5-5--x-x-5-5--|
D|-5---x-x-5---x-x-5-5--x-x-5-5--|-5---x-x-5---x-x-5-5--x-x-5-5--|
  "all                     one by one             thought I'd find the"  

e|-------------------------------|-------------------------------|
B|-3-------3-------3-3------3-3--|-2-------2-------2-2------2-2--|
G|-4-------4-------4-4------4-4--|-2-------2-------2-2------2-2--|
D|-4---x-x-4---x-x-4-4--x-x-4-4--|-2---x-x-2---x-x-2-2--x-x-2-2--|
A|-2---x-x-2---x-x-2-2--x-x-2-2--|-0---x-x-0---x-x-0-0--x-x-0-0--|
D|-------------------------------|-------------------------------|
  "sun               and melting down             soon I'd hit the"

e|-------------------------------|---------------------------------|
B|-------------------------------|---------------------------------|
G|-------------------------------|---------------------------------|
D|-5-------5-------5-5------5-5--|-5-5-5---5-5-5---5-5-5-5-5-5-0---|
A|-5---x-x-5---x-x-5-5--x-x-5-5--|-5-5-5---5-5-5---5-5-5-5-5-5-0---|
D|-5---x-x-5---x-x-5-5--x-x-5-5--|-5-5-5---5-5-5---5-5-5-5-5-5-0---|
 "ground             and up so fast           the future's in the past"



Lead Part (starting 4th bar of Verse, 0:35)
e|---------------|------------------|------------------|--------------|
B|---------------|------------------|-------7-10-7-----|--------------|
G|------7-9-9p7--|-9-7--------------|--------------9-7-|-7b9~~--------|
D|----9----------|-----9-7-9~-------|------------------|-----------9~-|
A|---------------|------------------|------------------|--------------|
D|---------------|------------------|------------------|--------------|

e|--------------------------|
B|--------------------------|
G|--------------------------|
D|-7h9-7--------------------|
A|-------9-7-5-7-5---5~~----|
D|-----------------9--------|



Play Intro again for 8 bars with similar overdub harmonics



Funky part - Heavy distortion, play 2x
e|------------------------------|---------------------5--5-5--|
B|------------------------------|---------------------5--5-5--|
G|------------------------------|---------------------5--5-5--|
D|------------------------------|-2~--0---------------5--5-5--|
A|---------5--x-x-3--x-5--------|-------2~--0-----------------|
D|-2b3r2-0----------------x-7

ĂŽnscrie-te la newsletter


Like us on Facebook