Get It Up Intro Tab - Chickenfoot






hers the intro riff

e|----------------------------|
b|----------------------------|
g|----------------------------|
d|44-4-4-4-4-5-5-5-7----------|
a|44-4-4-4-4-5-5-5-7-------7--|
e|22-0-2-2-0-3-3-0-5-77-10----|


e|----------------------------|
b|----------------------------|
g|----------------------------|
d|44-4-4-4-4-5-5-5-7----------|
a|44-4-4-4-4-5-5-5-7-------7--|
e|22-0-2-2-0-3-3-0-5-77-10----|

ĂŽnscrie-te la newsletter


Like us on Facebook