Soap On A Rope Intro Tab - Chickenfoot






-------------------------------------------------------------------------------
SOAP ON A ROAP- CHICKENFOOT
-------------------------------------------------------------------------------
Tabbed by: Riprandyrhoads
Email: quinndiaz@hotmail.com


This is just the intro, and I think it sounds pretty good on my axe. Its got a lot of 
notes, which Ill indicate by the parentheses.

Long live Satch!!!

Tuning:EADGBe
                     Second time around, second bar and go to next line.
e|-------------------------------------|-----3~-----2~-----------------------|
B|-------------------------------------|-----3~-----3~-----------------------|
G|---2-2----------2--------------------|--(0)0~-----2~-----------------------|
D|---2-2---------(2)-2-----------------|------------0~-----------------------|
A|---0-0---0h3p3-----0---0h35p0--0h3p3|-------------------------------------|
E|-------------------------------------|-------------------------------------|

e|--------------------------------------------------------------------------||
B|------/8-8-8-8-8-8---8/--7-5----------------------------------------------||
G|-------9-9-9-9-9-9---9/--7-5----(7)-(7)--------------------------------o--||
D|-----------------------------(0)(0)-(0)--------------------------------o--||
A|--------------------------------------------------------------------------||
E|--------------------------------------------------------------------------||

ĂŽnscrie-te la newsletter


Like us on Facebook