Eyes Of A Criminal Bass Tab - Chimaira




this is VERY close if not exactly how they play itthe only thing that im not 100%
on is the solo part
intro/verse
F|--------------------------------|
C|--------------------------------|
G|--------------------------------|
C|-8p0-0-0-1p0-0-1--0-1h3-0-0-3h4-|

F|-------------------------|
c|-------------------------|
G|-------------------------|
C|-8p0-0-0-0-1--0-1--0-1/4-|

prechorous
F|------------|
C|------------|
G|-1----1---4-|
C|---0----0---|

chorous
F|------------------------------|
C|------------------------------|
G|------------------------------|
C|-1p0-0-0-4--0-0-0-111-333-444-|

F|------------------------------|
C|------------------------------|
G|------------------------------|
C|-1p0-0-0-4--0-0-0-111-333-111-|

intrelude
F|---||---------------|
C|---||---------------|
G|---||-----1-4-1-0---|
C|-0-||-3-4---------0-|

solo
F|------------------------------------|
C|------------------------------------|
G|------------------------------------|
C|-8p0-0-0-1p0-0-0--0-0-0-111-333-444-|

F|------------------------------------|
C|------------------------------------|
G|-3----------------------------------|
C|---2-2-2--2222-2-2--2-2-333-555-666-|

outro
F|-----------------|
C|-----------------|
G|-----------------|
C|-0-0-111-333-444-|

ĂŽnscrie-te la newsletter


Join the ranks ! LIKE us on Facebook