Nothing Remains Bass Tab - Chimaira




Chimaira 
Nothing Remains 
CGCF

Intro:
|---------------| 
|---------------| 
|4-----4-----4--| 
|--5-5---5-5----|X23 

             |1,2,3         |4  |
|------------|--------------|---|    
|*-----------|--------------|--*|    
|*---------4-|-----4-----4--|--*|    
|-55555555---|-5-5---5-5----|-r-|X4

Pre-Verse
|-----------------------------------------------------------------------|
|-----------------------------------------------------------------------|
|1-2-------------1-----1-----1/5-4-----------------1-----1-----1/6-5----|
|----2-2-2-2-2-2---2-2---2-2---------2-2-2-2-2-2-2---2-2---2-2----------|

|----------------------------------------------------------------|
|----------------------------------------------------------------|
|1-2-------------1-----1-----1/5-4-----------------1-----1-----5-|
|----2-2-2-2-2-2---2-2---2-2---------2-2-2-2-2-2-2---2-2---2-2---|

Verse:
|----------------------------------------------------|
|----------------------------------------------------|
|----------------------4~-----6~---------8~--------/-|
|0~---9~---7~----4~-----------------7~--------10b--/-|X2 

Chorus:
|---------------| 
|---------------| 
|4-----4-----4--| 
|--5-5---5-5----|X2

             |1,2,3         |4  |
|------------|--------------|---|    
|*-----------|--------------|--*|    
|*---------4-|-----4-----4--|--*|    
|-55555555---|-5-5---5-5----|-r-|X4

Pre-Verse:
Verse:
Chorus:

Bridge:
|---------------------------------|
|---------------------------------|
|-4---4---3---3---6---6---5---5---|
|---0---0---0---0---0---0---0---0-|X2

|--------------------------------|
|--------------------------------|
|--------------------------------|
|0~-----7~-----3~-----8~-----0-r-|

|----------------------------|
|----------------------------|
|----------------------------|
|0~----4~-----10~-----13-13--|

|----------------------------|
|----------------------------|
|----------------------------|
|0~--54~-----10~-----13-13--|
           
|----------------------------|
|----------------------------|
|----------------------------|
|0~----4~-----10~-----13-13--|

|--------------------------|
|--------------------------|
|--------------------------|
|0~----4~-----10~------13--|

Verse:
|---------------| 
|---------------| 
|4-----4-----4--| 
|--5-5---5-5----|X15

|---------------------------------------------------------|
|--------------------------4--------------454-------------|
|-------------444444-4-5-7--------------------7-5-4-5-4---|
|444444-4-5-7----------------444444-4-5-7---------------7-|X2

|----------------------------------------------------------|
|-------------5------------565-----5-8-6-5-565-------------|
|-------5-6-8--------5-6-8-----6-8-------------8-6-5-6-5---|
|555555---------5555-------------------------------------8-|X2

|------------------------------------------------------------|
|-------------4--------------4--------------4--------------4-|
|-------4-5-7----------4-5-7----------4-5-7----------4-5-7---|
|444444---------444444---------444444---------444444---------|

|----------------------------------------------------------|
|-------------4--------------4--------------4--------------|
|-------4-5-7----------4-5-7----------4-5-7----------4-5-7-|
|444444---------444444---------444444---------444444-------|

|------------------|
|------------------|
|------------------|
|4~---6~---2~---2--|

Solo:
|----------------------------------------------------------|
|----------------------------------------------------------|
|4--------------------------4------------------------------|
|-44444444444444444444444444-444444444444444444444444444444|

|----------------------------------------------------------|
|*------------5------------565-----5-8-6-5-565-------------|
|*------5-6-8--------5-6-8-----6-8-------------8-6-5-6-5---|
|555555---------5555-------------------------------------8-|
                                                             
|---------------------------------------------------------|  
|--------------------------4--------------454------------*| 
|-------------444444-4-5-7--------------------7-5-4-5-4--*|
|444444-4-5-7----------------444444-4-5-7---------------7-|X2

|------------|
|------------|
|------------|
|4~--6~--2~--|

Chorus:
|---------------| 
|---------------| 
|4-----4-----4--| 
|--5-5---5-5----|X4

             |1,2,3         |4  |
|------------|--------------|---|    
|*-----------|--------------|--*|    
|*---------4-|-----4-----4--|--*|    
|-55555555---|-5-5---5-5----|-r-|X8

Outro:
|---------------|
|---------------|
|----4----------|
|5-5---5-5-5-5--|X20

|-------------|
|-------------|
|----4-----4--|
|5-5---5-5----|X4

|------------|
|------------|
|------------|
|4~--6~--2~--|

|---------------| 
|---------------| 
|4-----4-----4--| 
|--5-5---5-5----|X2


ĂŽnscrie-te la newsletter


Join the ranks ! LIKE us on Facebook