Pictures In The Gold Room Bass Tab - Chimaira






Chimaira - Pictures in the Gold Room

CGCF - Tuning

F--------------------          F------------- I ----------------------|
C--------------------          C------------- I ----------------------|
G-1---1---1---1------          G-1---1---1--- I 1---------------------|
C—-0-0-0-0-0-0-00-00-          C—-0-0-0-0-0-0 I -00-00-0~-------------|

F--------------------------|
C--------------------------|
G-1------------------------|
C--00-00-0-000-000-000-333-|

F----------------------------|
C----------------------------|
G-1-----1-----1--------------|
C--00-00-00-00-00-00-0-3-2-1-|

F----------          F----------|
C----------          C----------|
G-1--------          G----------|
C--00-00-0~          C-0/12~-0~-|

F---------------------|
C---------------------|
G---------------------|
C-1-1-1-1-111-4-1-1//-|   slide down and up again

F--------------------          F------------------|
C--------------------          C------------------|
G-1---1---1---1------          G-3555-------------|
C—-0-0-0-0-0-0-00-00-          C------3555--------|

F----------- I ---------------|
C----------- I ---------------|
G-3555------ I 5^-------------|
C------3555- I ---00-00-0-000-|

ĂŽnscrie-te la newsletter


Like us on Facebook