Power Trip Bass Tab - Chimaira




Chimaira - Power Trip

Tuning : CGCF

------|
------|
------|     Intro
-3--3-|


------------|
------------|
------------|     MainRiff
-3--3-63436-|

-------------|
-------------|
-------------|     Verse
-333---63436-|

------------------------------------------------------|
------------------------------------------------------|
--------------------------------------------2---------|     Chorus
-333433-333433-333433--4/6--3334--3-34--6-0---00------|


-------------------------|
-------------------------|
-------------------------|    During the Solo
-33333--33333-3333633334-|


---------|
---------|
---------|     Fill
-3-3-3-3-|

---------------------I
---------------------I
------2--------------I     Outro
-6-0---------3-1-4-0-I

ĂŽnscrie-te la newsletter


Join the ranks ! LIKE us on Facebook