Pure Hatred Bass Tab - Chimaira




Bass Intro/Verse x8 0:32
G|----------------------------------|
D|----------------------------------|
A|----------------------------------|
E|----------------------------------|
B|-5-5-5-4-4-4-6-6-6-4-4-4--3-3-3-3-|

Pre Chorus x4 0:53
G|----------------------|
D|----------------------|
A|----------------------|
E|----------------------|
B|-5~-4~-6~-0-0-0-0-0-0-|

No Bass for 2 seconds (1:04-1:06)

Chorus 1:06
G|----------------------------------------------------------|
D|----------------------------------------------------------|
A|----------------------------------------------------------|
E|----------------------------------------------------------|
B|-3-3-3-3-0-3-3-3-3-0--0--0--0--3-3-3-3-0-3-3-3-3-0-5-0-5--|

Chorus-2 1:11
G|--------------------------------------------------|
D|--------------------------------------------------|
A|--------------------------------------------------|
E|--------------------------------------------------|
B|-3-3-3-3-0-3-3-3-3-0--0--0--0--3-3-3-3-0-3-3-3-3--|

No Bass For 1 second (1:16-1:17)

Verse x4 1:17
G|----------------------------------|
D|----------------------------------|
A|----------------------------------|
E|----------------------------------|
B|-5-5-5-4-4-4-6-6-6-4-4-4--3-3-3-3-|

Pre Chorus x4 1:28
G|----------------------|
D|----------------------|
A|----------------------|
E|----------------------|
B|-5~-4~-6~-0-0-0-0-0-0-|

No Bass for 3 seconds (1:38-1:41)

Chorus 1:41
G|----------------------------------------------------------|
D|----------------------------------------------------------|
A|----------------------------------------------------------|
E|----------------------------------------------------------|
B|-3-3-3-3-0-3-3-3-3-0--0--0--0--3-3-3-3-0-3-3-3-3-0-5-0-5--|

Chorus-2 1:46
G|--------------------------------------------------|
D|--------------------------------------------------|
A|--------------------------------------------------|
E|--------------------------------------------------|
B|-3-3-3-3-0-3-3-3-3-0--0--0--0--3-3-3-3-0-3-3-3-3--|

Post Chorus 1:52 x2
G|----------------------------------------------------------|
D|----------------------------------------------------------|
A|----------------------------------------------------------|
E|----------------------------------------------------------|
B|-3-3-3-3-0-3-3-3-3-0--0--0--0--3-3-3-3-0-3-3-3-3-0-5-0-5--|

No Bass for 2 seconds (2:02-2:04)

Pre-Bridge 2:04
G|-------|
D|-------|
A|-------|
E|-------|
B|-3/9/1-|

Bridge x3 2:05
G|----------------------------|
D|----------------------------|
A|----------------------------|
E|----------------------------|
B|-5-5-0-6--5-0-0-7-6-0-0-0-0-|

Bridge-2 2:13
G|------------------------------|
D|------------------------------|
A|------------------------------|
E|------------------------------|
B|-5-5-0-6--5-0-0-7-6-7-6-7-6-8-|

Bridge x3 2:16
G|----------------------------|
D|----------------------------|
A|----------------------------|
E|----------------------------|
B|-5-5-0-6--5-0-0-7-6-0-0-0-0-|

Bridge-3 2:24
G|----------------------|
D|----------------------|
A|----------------------|
E|----------------------|
B|-5-5-0-6--5-0-0-7-6-5-|

Bridge-4 2:26
G|-----------------------|
D|-----------------------|
A|-----------------------|
E|-----------------------|
B|-0-0--0-0--0-0--0-0--0-|

Verse x4 2:29
G|----------------------------------|
D|----------------------------------|
A|----------------------------------|
E|----------------------------------|
B|-5-5-5-4-4-4-6-6-6-4-4-4--3-3-3-3-|

Pre Chorus x4 2:40
G|-----------------------------------------|
D|-----------------------------------------|
A|-----------------------------------------|
E|-----------------------------------------|
B|-5-5-5-4-4-4-6-6-6-4-4-4-0-0-0-0-0-0-0-0-|

No Bass for 3 seconds (2:50-2:53)

Chorus 2:53
G|----------------------------------------------------------|
D|----------------------------------------------------------|
A|----------------------------------------------------------|
E|----------------------------------------------------------|
B|-3-3-3-3-0-3-3-3-3-0--0--0--0--3-3-3-3-0-3-3-3-3-0-5-0-5--|

Chorus-2 2:58
G|------------------------------------------------------------|
D|------------------------------------------------------------|
A|------------------------------------------------------------|
E|------------------------------------------------------------|
B|-3-3-3-3-0-3-3-3-3-0--0--0--0--3-3-3-3-0-3-3-3-3-0-5-0-5-5~-|

Chorus 3:04
G|----------------------------------------------------------|
D|----------------------------------------------------------|
A|----------------------------------------------------------|
E|----------------------------------------------------------|
B|-3-3-3-3-0-3-3-3-3-0--0--0--0--3-3-3-3-0-3-3-3-3-0-5-0-5--|

Chorus-2 3:09
G|-----------------------------------------------------------|
D|-----------------------------------------------------------|
A|-----------------------------------------------------------|
E|-----------------------------------------------------------|
B|-3-3-3-3-0-3-3-3-3-0--0--0--0--3-3-3-3-0-3-3-3-3-0-5-0-5/2-|

Outro 3:15 x6
G|------------------------------------------------------------------------|
D|------------------------------------------------------------------------|
A|------------------------------------------------------------------------|
E|------------------------------------------------------------------------|
B|-3--0-0--3-3-3-3---3-3-3-3-0-0-0-0-3--0-0--3-3-3-3---3-3-3-3-0--0--0--0-|

-------------------------------------------------------------|
-------------------------------------------------------------|
-------------------------------------------------------------|
-------------------------------------------------------------|
-3--0-0--3-3-3-3---3-3-3-3-0-0-0-0-5-5-5-5-5-5-7-7-7-5-5-5/1-|


Great song to play, enjoy..
Rate This Tab Plz...

ĂŽnscrie-te la newsletter


Join the ranks ! LIKE us on Facebook