Resurrection Tab - Chimaira




-------------------------------------------------------------------------------
  Resurrection - Chimaira
-------------------------------------------------------------------------------

ARTIST:Chimaira
SONG:Resurrection
ALBUM:Resurrection
TABBED BY:h8urlife
TUNING: C G C F A D

          (Intro)
d|--------------------------------|
A|--------------------------------|
F|--------------------------------|
C|--------------------------------|
G|-7-----5-----3-----2------------|
C|-7-0-0-5-0-0-3-0-0-2--0-3-5-3-2-|
     x x   x x   x x

d|------------------------------------------------------|
A|------------------------------------------------------|
F|------------------------------------------------------|
C|-------3-------3-2---------------3-------3-2----------|
G|-5-3-0-3-3-5-3-3-2--3-5-2--5-3-0-3-3-5-3-3-2----------|
C|-5-3-0---3-5-3------3-5-2--5-3-0---3-5-3------0000000-|
   x x x   x x x      x x x  x x x   x x x      xxxxxxx

d|---------------------------------------------|
A|---------------------------------------------|
F|---------------------------------------------|
C|-------3-------3-2---------------3-------3-2-|
G|-5-3-0-3-3-5-3-3-2--3-5-2--5-3-0-3-3-5-3-3-2-|
C|-5-3-0---3-5-3------3-5-2--5-3-0---3-5-3-----|
   x x x   x x x      x x x  x x x   x x x

d|------------------------------|      d|---------------------|
A|------------------------------|      A|---------------------|
F|------------------------------|      F|---------------------|
C|-------3-------3-2------------| (3x) C|-------3-------3-2---| (1x)
G|-5-3-0-3-3-5-3-3-2--3-5-2-3-2-|      G|-5-3-0-3-3-5-3-3-2-0-|
C|-5-3-0---3-5-3------3-5-2-3-2-|      C|-5-3-0---3-5-3-----0-|
   x x x   x x x      x x x x x           x x x   x x x

d|-------------------------------------|---------------------------------|
A|-------------------------------------|---------------------------------|
F|-------------------------------------|---------------------------------|
C|-------------------------------------|---------------------------------|
G|-7-----------------------------------|---------------------------------|
C|-7-0000-5-0000-3-0000-2-0000-0-3-5-3-|-3-3-3-3-3-3-3-3-6-6-6-6-6-6-6-6-|

d|-------------------------------------|-----------|
A|-------------------------------------|-----------|
F|-------------------------------------|-----------|
C|-------------------------------------|-----------|
G|-7-----------------------------------|--3~---6~--|
C|-7-0000-5-0000-3-0000-2-0000-0-3-5-3-|--3~---6~--|

d|-------------------------------------|
A|-------------------------------------|
F|-------------------------------------|
C|-------------------------------------|
G|-7------5------3------2--------------|
C|-7-0000-5-0000-3-0000-2-0000-0-3-5-3-|
     xxxx   xxxx   xxxx   xxxx

Chorus:


d|------------------------------------------------------------------------------------------------|
A|------------------------------------------------------------------------------------------------|
F|------------------------------------------------------------------------------------------------|
C|------------------------------------------------------------------------------------------------|
G|-0-0-0-0-0-0-0-0--8-8-8-8-8-8-8-8--4-4-4-4-4-4-4-4--7-7-7-7-7-7-7-7-----------------------------|
C|-0-0-0-0-0-0-0-0--8-8-8-8-8-8-8-8--4-4-4-4-4-4-4-4--7-7-7-7-7-7-7-7--3333333333333-666666666666-|

d|------------------------------|
A|------------------------------|
F|------------------------------|
C|-------3-------3-2------------|
G|-5-3-0-3-3-5-3-3-2--3-5-2-3-2-|
C|-5-3-0---3-5-3------3-5-2-3-2-|
   x x x   x x x      x x x x x


Under Solo:


d|-------------------------------------|---------------------------------|
A|-------------------------------------|---------------------------------|
F|-------------------------------------|---------------------------------|
C|-------------------------------------|---------------------------------|
G|-7-----------------------------------|---------------------------------|
C|-7-0000-5-0000-3-0000-2-0000-0-3-5-3-|-3-3-3-3-3-3-3-3-6-6-6-6-6-6-6-6-|

        at (2:34)
d|-----------------------------------------------------|
A|-----------------------------------------------------|
F|-----------------------------------------------------|
C|-------3----------------------------3---------3^--3^-| (2x)
G|-5-3-0-3-0-0-0-0-0-0-0-0-0-0--5-3-0-3-0-0-0-0--------|
C|-5-3-0---0-0-0-0-0-0-0-0-0-0--5-3-0---0-0-0-0--------|
   x x x   x x x x x x x x x x  x x x   x x x x


d|-----------------------------------------------------|
A|-----------------------------------------------------|
F|-----------------------------------------------------|
C|-------3----------------------------3---------3^-----| (2x)
G|-5-3-0-3-0-0-0-0-0-0-0-0-0-0--5-3-0-3-0-0-0-0-----2^-|
C|-5-3-0---0-0-0-0-0-0-0-0-0-0--5-3-0---0-0-0-0--------|
   x x x   x x x x x x x x x x  x x x   x x x x

d|--------------------------------------------------------------------------------|
A|--------------------------------------------------------------------------------|
F|--------------------------------------------------------------------------------|
C|--------------------------------------------------------------------------------|
G|-00-00-00-00-00-00-00-00-00-00-00-00-00-00-00-00-00-00--5-3-2-------5-3-2-------|
C|-00-00-00-00-00-00-00-00-00-00-00-00-00-00-00-00-00-00--------2-3-5-------2-3-5-|
   xx xx xx xx xx xx xx xx xx xx xx xx xx xx xx xx xx xx

d|--------------------------------------------------------------------|
A|--------------------------------------------------------------------|
F|--------------------------------------------------------------------|
C|--------------------------------------------------------------------|
G|-00-00-00-00-00-00-00-00-00-00-00-00-00-00-00-00-00-00--------5-3-2-|
C|-00-00-00-00-00-00-00-00-00-00-00-00-00-00-00-00-00-00--2-3-5-------|
   xx xx xx xx xx xx xx xx xx xx xx xx xx xx xx xx xx xx

d|--------------------------------------------------------------------------------|
A|--------------------------------------------------------------------------------|
F|--------------------------------------------------------------------------------|
C|--------------------------------------------------------------------------------|
G|-00-00-00-00-00-00-00-00-00-00-00-00-00-00-00-00-00-00--5-3-2-------5-3-2-------|
C|-00-00-00-00-00-00-00-00-00-00-00-00-00-00-00-00-00-00--------2-3-5-------2-3-5-|
   xx xx xx xx xx xx xx xx xx xx xx xx xx xx xx xx xx xx

d|--------------------------------------------------------------------------------|
A|--------------------------------------------------------------------------------|
F|--------------------------------------------------------------------------------|
C|--------------------------------------------------------------------------------|
G|-00-00-00-00-00-00-00-00-00-00-00-00-00-00-00-00-00-00--------5-3-2-------5-3-2-|
C|-00-00-00-00-00-00-00-00-00-00-00-00-00-00-00-00-00-00--2-3-5-------2-3-5-------|
   xx xx xx xx xx xx xx xx xx xx xx xx xx xx xx xx xx xx

d|---------------------|
A|---------------------|
F|---------------------|
C|-------3-------3-2---|
G|-5-3-0-3-3-5-3-3-2-0-|
C|-5-3-0---3-5-3-----0-|


Chorus:


d|------------------------------------------------------------------------------------------------|
A|------------------------------------------------------------------------------------------------|
F|------------------------------------------------------------------------------------------------|
C|------------------------------------------------------------------------------------------------|
G|-0-0-0-0-0-0-0-0--8-8-8-8-8-8-8-8--4-4-4-4-4-4-4-4--7-7-7-7-7-7-7-7-----------------------------|
C|-0-0-0-0-0-0-0-0--8-8-8-8-8-8-8-8--4-4-4-4-4-4-4-4--7-7-7-7-7-7-7-7--3333333333333-666666666666-|

d|------------------------------|
A|------------------------------|
F|------------------------------|
C|-------3-------3-2------------|
G|-5-3-0-3-3-5-3-3-2--3-5-2-3-2-|
C|-5-3-0---3-5-3------3-5-2-3-2-|
   x x x   x x x      x x x x x


    Then:


d|---------------------------------------------------------------------------------------------------------------|
A|---------------------------------------------------------------------------------------------------------------|
F|---------------------------------------------------------------------------------------------------------------|
C|---------------------------------5-5-5-5-5-5-5-5---------------------------------------------------------------|
G|-6-6-6-6-6-6-6-6---------------------------------5-5-5-5-5-5-5-5-----------------------------------------------|
C|-----------------8-8-8-8-8-8-8-8---------------------------------8-8-8-8-8-8-8-8-4-4-4-4-4-4-4-4-4-0-0-0-0-0-0-|


d|------------------------------------------------------------------------|
A|------------------------------------------------------------------------|
F|------------------------------------------------------------------------|
C|------------------------------------------------------------------------|
G|--~5^----0-1-1-1-1-1-0--0-1-1-1-1-1-0--0-1-1-1-1-1-0---5/4--4/2--2/1--1-|
C|---------0-1-1-1-1-1-0--0-1-1-1-1-1-0--0-1-1-1-1-1-0---5/4--4/2--2/1--1-|
             x x x x x      x x x x x      x x x x x

d|------------------------------------------------------------------|
A|------------------------------------------------------------------|
F|------------------------------------------------------------------|
C|------------------------------------------------------------------|
G|-0-1-1-1-1-1-0--0-1-1-1-1-1-0--0-1-1-1-1-1-0---5/4--4/2--0-0-1~---|
C|-0-1-1-1-1-1-0--0-1-1-1-1-1-0--0-1-1-1-1-1-0---5/4--4/2--0-0-1~---|
     x x x x x      x x x x x      x x x x x                   x

                PLEASE RATE AND COMMENT!

ĂŽnscrie-te la newsletter


Join the ranks ! LIKE us on Facebook