Glory In The Highest Intro Tab - Chris Tomlin






-------------------------------------------------------------------------------
     Glory In The Highest - Chris Tomlnin
-------------------------------------------------------------------------------
Tabbed by: Seth Nelson
Email: nelsonsh@etown.edu

Tuning: Standard

Piano:

e|-12--10------10-------------------10--------------------------------------|
B|---------13------13----10-------------------------------------------------|
G|--------------------------------------------------------------------------|
D|--------------------------------------------------------------------------|
A|--------------------------------------------------------------------------|
E|--------------------------------------------------------------------------|

Guitar 1:

e|---------------------------15---------------------------------------------|
B|------------------------------13------------------------------------------|
G|--------------------------------------------------------------------------|
D|--------------------------------------------------------------------------|
A|--------------------------------------------------------------------------|
E|--------------------------------------------------------------------------|

Repeat 4x

The outro is just the guitar.

Very easy.  This is also the melody for the chorus.






Like us on Facebook