How Great Is Our God Tab - Chris Tomlin






Capo 1

The main idea of this is just a basic C but it changes after two down strokes and plays
3rd string open for one Down stroke then just fiddles with the bottom four strings then
it over once more. It cuts out a beat the second time through to make a transition from 
C to the Am7 as shown below. Repeat the same 2 downstroke and lift of the 3rd string
fret as you did with the C and then do the same with the F also (There is no transition 
the Am7 to the F).
          C                C to Am7 Trans.
e|--0--0--0--0--0--|    e|--0--0--0--0--0--|  e|--0--0--0--0--0--|
B|--1--1--1--1--1--|    B|--1--1--1--1--1--|  B|--1--1--1--1--1--|
G|--0--0--0--0--0--|X2  G|--0--0--0--0--0--|  G|--0--0--0--0--0--|x2
D|--2--2--0--2--2--|    D|--2--2--0--2--0--|  D|--2--2--0--2--2--|
A|--3--3--3--3--3--|    A|--3--3--3--3--2--|  A|--0--0--0--0--0--|
E|--x--x--x--x--x--|    E|--x--x--x--x--x--|  E|--x--x--x--x--x--|

e|--0--0--0--0--0--|
B|--1--1--1--1--1--|
G|--2--2--0--2--2--|x2
D|--3--3--3--3--3--|
A|--0--0--0--0--0--|
E|--x--x--x--x--x--|

You just need to Repeat this Throughout the song but when you get to the Chorus just go
a rythmic strumming and don't lift the 2nd fret but do make transition from the C to the Am7.


Verse 1:

C                         Am7
The splendor of the King, clothed in majesty,
                    F
Let all the earth rejoice, all the earth rejoice.
C                              Am7
He wraps Himself in light, and darkness tries to hide,
                    F
And trembles at his voice, trembles at his voice.


Chorus:

C                      C-Am7 Trans.
How great is our God, sing with me,
Am7
How great is our God, all will see,
F2             G               C
How great, how great is our God.

Verse 2:

C                         Am7
Age to age He stands, and time is in His hands,
F
Beginning and the end, beginning and the end.
C                          Am7
The Godhead, three in one: Father, Spirit, Son,
F
The Lion and the Lamb, the Lion and the Lamb.

(CHORUS)

Ending Solo:

   C.......................C-Am7  Am7...............................
e|---------0-------------------------------0---------------0-------|
B|-----1-----1---1-----1-----1---1-----1-----1---1-----1-----1---1-|
G|---0---0-----0-----0---0-----------0---0-----0-----0---0-----0---|
D|-----------------------------------------------------------------|
A|-3---------------3-------3---2---0---------------0---------------|
E|-----------------------------------------------------------------|

   F....................G................C................................
e|-0-0-------0-------0--3-3-----3-----0--0-------0-------0-------0-------|
B|-1---1-------1--------3---3-----3------1---1-----1---1-1---1-----1---1-|
G|-2-----2-------2------0-----0-----0----0-0---0-----0---0-0---0-----0---|
D|-3-------3-------3----0----------------2---------------2---------------|
A|-0--------------------2----------------3---------------3---------------|
E|-x--------------------3----------------x---------------x---------------|

I just like to add that little ending at the end. I hope you like it!! Also, to
exactly how to play it I think its his newer Album version.

God Bless and I hope this gets 5 stars!!!






Like us on Facebook