Jesus Paid It All Chords - Chris Tomlin






-------------------------------------------------------------------------------
     JESUS PAID IT ALL - Chris Tomlin

Tabbed by: The Count of Monte Cristo

This is one of my favorite hymns.  Very easy to play.  Just a three chord
song.  

Tuning: Standard, Key of B (Capo IV)

Intro / Walk (playe straight and rugged):
Good to use your idle thumb to mute the low E string.

      G      G/B     C     G/B     D     G/B    C     G/B-D
e|----------------------------------------------------------|
B|----------------------------------------------------------|
G|----------------------------------------------------------|
D|----------------------------------------------------------|
A|--2-2-2-2--2-2--3-3-3-3--2-2--0-0-0-0--2-2--3-3-3-3--2-0--|
E|--3-3-3-3--X-X--X-X-X-X--X-X--X-X-X-X--X-X--X-X-X-X-------|

e|--------------------------------------------3~~~~---------|
B|--------------------------------------------3~~~~---------|
G|--------------------------------------------0~~~~---------|
D|--------------------------------------------2~~~~---------|
A|--2-2-2-2--2-2--3-3-3-3--2-2--0-0-0-0--2-2--3~~~~---------|
E|--3-3-3-3--X-X--X-X-X-X--X-X--X-X-X-X--X-X--X-------------|


Chords used:

     G       C2      D/F#
e|---3---  ---3---  ---3---|  
B|---3---  ---3---  ---3---|  
G|---0---  ---0---  ---2---|  
D|---0---  ---2---  ---0---|  
A|---2---  ---3---  ---0---|  
E|---3---  ---X---  ---2---| 


Verse (chords same for all verses):
   G           
I hear the Saviour say
     D/F#              G
Thy strength indeed is small.
(G)                         C2
Child of weakness watch and pray
        G        D/F#    G
Find in me thine all in all.


Chorus:
G             C2
Jesus paid it all.
G            D/F#
All to Him I owe.
G                C2
Sin had left a crimson stain,
    G        D/F#      G
He washed it white as snow.


Refrain: can be played over the intro / walk too
     G                 C2
Oh praise the one who paid my debt
     G                   C2
And raised this life up from the dead.






Like us on Facebook