Kindness Intro Tab - Chris Tomlin






  This is my first tab so it wont be very perfect.
  (Capo 1)

[-----------------------------------------]
[-------3-------3--------3------3-----3---]
[--2h4---4----2---2----4---4---------2----]
[--5---5----4--------2--------0---2h4-----]
[-----------------------------------------]
[-----------------------------------------]    

[--------------------------------3--------]
[-------3-------3--------3-------3--------]
[--2h4---4----2---2----4---4--------------]
[--5---5----4--------2----------2---------]
[-----------------------------------------]
[-----------------------------------------] 

  Thats all I got so far. I'll get the rest later.

                 COOL!!!






Like us on Facebook