Made To Worship Intro Tab - Chris Tomlin






Artist: Chris Tomlin
Song: Made to Worship
Album: See The Morning

Tabbed by: Ethan McKown
Email: saints.skater15@gmail.com

This is right, I've checked it many times, well have fun!

Tuning: EADGBe

e|------------------12-10-10--------------------------------------------|
B|------10--13---------------13-------10--13------13-12-12-10-12-10-----|
G|----12--12--12--------------------12--12--12----------------------12--|
D|--10----------10----------------10----------10------------------------|
A|----------------------------------------------------------------------|
E|----------------------------------------------------------------------|

e|------------------12-10-10--------------------------------------------|
B|------10--13---------------13-------10--13------13-12-12-10-12-10-----|
G|----12--12--12--------------------12--12--12----------------------12--|
D|--10----------10----------------10----------10------------------------|
A|----------------------------------------------------------------------|
E|----------------------------------------------------------------------|

So thats the intro to Made to Worship! Hope that it helped you out! If you want to learn 
rest of the song, look at the chords tabs on this site for the song, they are perfect too.






Like us on Facebook