My Deliverer Intro Tab - Chris Tomlin






----------------------------------------------------
           My Deliverer -- Chris Tomlin
----------------------------------------------------

Song: My Deliverer
Artist: Chris Tomlin
Album: Hello Love
Track #09
Standard Tuning

Intro:
e|---------------------------------------------------|
B|--14----14----16----14----14----14----16----18-----|
G|-----13----13----13----13----13----13----13----13--| X7
D|---------------------------------------------------|
A|---------------------------------------------------|
E|---------------------------------------------------|

play the above part 7 times and for the 8th time I prefer 
to play this, but do whatever you think sounds better
e|----------------------------------------------------|
B|--14----14----16----14----14----14----14-16-18--14~-|
G|-----13----13----13----13----13----13---------------|
D|----------------------------------------------------|
A|----------------------------------------------------|
E|----------------------------------------------------|

That's it. This is a super easy intro. If you want, instead 
of reaching for the 18th fret on the B string, just play
the 13th fret on the high E string if it's easier for you.
Please feel free to comment and please rate.






Like us on Facebook