With Me Tab - Chris Tomlin






WITH ME (CHRIS TOMLIN)
My first tab! yay!
It helps if you listen to the song while trying to figure it out.

INTRO
------------------------------------------------------|
-------13--12-------12--13--12------------------------|
--12------------12-----------------12 ----------------|(repeat)
------------------------------------------------------|
------------------------------------------------------|
------------------------------------------------------|


INTRO 2ND PART


--------------------------------10(x4)--12(x4) (repeat)-------12-12-12-12-12--|.etc...
---12(x8)--13(x8)--12(x8)-----------------------------------------------------|
------------------------------------------------------------------------------|
------------------------------------------------------------------------------|
------------------------------------------------------------------------------|
------------------------------------------------------------------------------|


VERSE 1  (rest)
I open my mouth and You speak for me
You move the mountains and roll back the sea.


PRE-CHORUS (I will not be afraid...you are with me)

-------------------------------|--------------------------------------------------|
----------------------------9--|--------------------------------------------------|
-------------------12(x)-------|-------------------------------------------9(x4)--|
--10(x12?)--10-----------------|---10(x12?)--9--10--9--10--12(x4)-----------------|
-------------------------------|--------------------------------------------------|
---------------------------- --|--------------------------------------------------|


CHORUS (I've seen enough....if you're not with me)
*octave lower*

--------------------------------------------------|-----------|
--------------------------------------------------|-----------|
---------------------------------------9(x4)------|--2 times--|
--9(x8)--10(x8)---9(x8)--12(x4)-------------------|-----------|
--------------------------------------------------|-----------|
--------------------------------------------------|-----------|


INSTRUMENTAL (after chorus) *normal octave*

---------------------------------10(x4)--12(x4)-|---------repeat----------------|
---12(x8)--13(x8)--12(x8)-----------------------|-------------------------------|
------------------------------------------------|-------------------------------|
------------------------------------------------|-------------------------------|
------------------------------------------------|-------------------------------|
------------------------------------------------|-------------------------------|


VERSE 2 (we open our hands...of the universe)
*wait 4 beats*

"for us"                    "universe"
-------------------|-----10-------------------------------------------|
--13--12-----------|----------13--12----------------------------------|
------------12-----|--------------------------------------------------|
-------------------|--------------------------------------------------|
-------------------|--------------------------------------------------|
-------------------|--------------------------------------------------|


*CHORUS 2nd time: upper octaves






Like us on Facebook