Heartbreak Station Solo Tab - Cinderella






I havent really found a tab for this one yet, this is my interpretation of
how it is done. To do it properly you should use a slide, but it can be done
without it also, but definatly sounds better with the slide. Just use standard
tuning.


e|--------------------------------------------------------------------------|
B|--3/10~--8/10--8~------8--------------8-7~---3/10~--10/13--12------10/13--|
G|-----------------7/9----9/7~--7/9---------------------------12~-----------|
D|--------------------------------------------------------------------------|
A|--------------------------------------------------------------------------|
E|--------------------------------------------------------------------------|


e|--------------------------------------------------------------------------|
B|-12------12/10--8/10~--------12~----15/13--11/12--------------------------|
G|----12-----------------3/12-----------------------12~----3/12-------------|
D|--------------------------------------------------------------------------|
A|--------------------------------------------------------------------------|
E|--------------------------------------------------------------------------|






Like us on Facebook