If You Dont Like It Tab - Cinderella






If You Dont Like It
Cinderella

This is the whole song minus the solo.

e|---5------8-----10------8---|
B|---5------8-----10------8---|
G|---6------9-----11------9---|
D|---7------10----12-----10---|
A|---0------0------0------0---|
E|----------------------------|


e|--5-----8----10----13-----5----|
B|--5-----8----10----13-----5----|
G|--6-----9----11----14-----6----|
D|--7-----10---12----15-----7----|
A|--0-----0-----0-----0-----0----|
E|-------------------------------|



e|---------------------------------------------------------------|
B|---------88---------------------------------------------------|
G|---------77---------------------------------------------------|(x3)
D|--2-2----99-----------------2---------------------------------|
A|--2-2----77----------------------4/55554444/5555p4-----------|
E|--0-0-----------0--3p0--3b------------------------------3b-----|

e|------------------------------------------------|
B|---------88------------------------------------|
G|---------77--------------------2-----------2---|
D|--2-2----99----------------2---0--------0------|
A|--2-2----77--------------------------4---------|
E|--0-0----------0--3p0--3b-----------------------|


e|-------------------------------------------------------|
B|-------------------------------------------------------|
G|-------------------------------------------------------|
D|-------------------------------------------------------| (x4)
A|--------5h7--------5h7--------5h7-----4h5-555p4--------|
E|---0000-----000000-----000000------00-------------3b---|


e|---------------------------------------------------------|
B|---------------------------------------------------------|
G|---2-----------------------------------------------------|
D|---2----5-----------------2------------0-----------------|
A|---0----5-------------2-------4-5---4----2---------------|
E|--------3-----0h4----------------------------3b----0h4---|

e|---------------------------------|
B|---------------------------------|
G|---------2-----4--2--------------|
D|----2----0--2--4--2--5--4--3-----|
A|--2---4-----0--2--2--5--4--3-----|
E|---------------------3--4--1-----|






Like us on Facebook