Once Around A Ride Intro Tab - Cinderella






Tabbed by: H.E.L.L.I.O.N.
Email: janiel@windowslive.com

Artist: Cinderella
Title: Once Around A Ride (Intro)
Album: Night Songs (1986)

Cinderella Rocks!

E|-------------------------------------------------------------|
H|-------------------------------------------------------------|
G|---------------2-----2-----2-----------------2-----2-----2---|
D|---------------2-----2-----2-----------------2-----2-----2---|
A|-------3-5-3---0-0-0-0-0-0-0---------3-5-3---0-0-0-0-0-0-0---|
E|-0-3-5-------5-----------------0-3-5-------5-----------------|

E|-------------------------------------------------------------|
H|-------------------------------------------------------------|
G|---------------2-----2-----2-----------------2-----2-----2---|
D|---------------2-----2-----2-----------------2-----2-----2---|
A|-------3-5-3---0-0-0-0-0-0-0---------3-5-3---0-0-0-0-0-0-0---|
E|-0-3-5-------5-----------------0-3-5-------5-----------------|






Like us on Facebook