Somebody Save Me Bass Tab - Cinderella






-----------------------------------------------------------------
SOMEBODY SAVE ME - Cinderella
-----------------------------------------------------------------

Intro                                         
G|------------------------|
D|------------------------|
A|-0-----3-2-0-5-3-0-3-2--|
E|------------------------|

G|-----------------------------------------------------------------|
D|-----------------------------------------------------------------|
A|-0-0-0-0-0-0-0-0-0-0-0-0-0-0-0-0-0-0-0-0-0-0-0-0-0-0-0-0-0-0-3-2-|
E|-----------------------------------------------------------------|

G|-----------------------------------------------------------------|
D|-----------------------------------------------------------------|
A|-0-0-0-0-0-0-0-0-0-0-0-0-0-0-0-0-0-0-0-0-0-0-0-0-3-2-0-5-3-0-3-2-|
E|-----------------------------------------------------------------|

Verse
G|-----------------------------------------------------------------|
D|-----------------------------------------------------------------|
A|-0-0-0-0-0-0-0-0-0-0-0-0-0-0-0-0-0-0-0-0-0-0-0-0-0-0-0-0-0-0-3-2-|
E|-----------------------------------------------------------------|(x3)

G|-----------------------------------------------------------------|
D|-----------------------------------------------------------------|
A|-0-0-0-0-0-0-0-0-0-0-0-0-0-0-0-0-0-0-0-0-0-0-0-0-3-2-0-5-3-0-3-2-|
E|-----------------------------------------------------------------|

G|-------------------------------------|
D|-------------------------------------|
A|-5-5-5-5-5-5-5-5-0--0-0-0-0-0-0-0--0-|
E|-------------------------------------|

G|-----------------------------------------------------------------|
D|-----------------------------------------------------------------|
A|-0-0-0-0-0-0-0-0-0-0-0-0-0-0-0-0-0-0-0-0-0-0-0-0-0-0-0-0-0-0-3-2-|
E|-----------------------------------------------------------------|

                                          ( ) Don't play 2nd time around
G|-------------------------------------------------------------------|
D|-------------------------------------------------------------------|
A|-0-0-0-0-0-0-0-0-0-0-0-0-0-0-0-0-0-0-0-0-0-0-0-0-3-2-0-5-3-(0-3-2)-|
E|-------------------------------------------------------------------|

Repeat, beginning from the Verse

                           (x3)
G|----------------------------|--------------|
D|----------------------------|--------------|
A|-5--5-5-5-5-0-0-0-0-0-0-0-0-|-5--5-5-------|
E|----------------------------|--------0-3-5-|

G|-----------------------------------------------------------------|
D|-----------------------------------------------------------------|
A|-0-0-0-0-0-0-0-0-0-0-0-0-0-0-0-0-0-0-0-0-0-0-0-0-0-0-0-0-0-0-3-2-|
E|-----------------------------------------------------------------|

G|-----------------------------------------------------------------|
D|-----------------------------------------------------------------|
A|-0-0-0-0-0-0-0-0-0-0-0-0-0-0-0-0-0-0-0-0-0-0-0-0-3-2-0-5-3-0-3-2-|
E|-----------------------------------------------------------------|

G|-----------------------------------------------------------------|
D|-----------------------------------------------------------------|
A|-0-0-0-0-0-0-0-0-0-0-0-0-0-0-0-0-0-0-0-0-0-0-0-0-0-0-0-0-0-0-3-2-|
E|-----------------------------------------------------------------|(x3)

G|-----------------------------------------------------------------|
D|-----------------------------------------------------------------|
A|-0-0-0-0-0-0-0-0-0-0-0-0-0-0-0-0-0-0-0-0-0-0-0-0-3-2-0-5-3-0-3-2-|
E|-----------------------------------------------------------------|

G|----------|
D|----------|
A|-0--00-00-|
E|----------|






Like us on Facebook