Somebody Save Me Tab - Cinderella






e ------------------------------------------------------------|
b ------------------------------------------------------------|
g ---------------------5-5-5-5-5-5-5-5------------------------|
d ---2-2-2-2-2-2-2-2---3-3-3-3-3-3-3-3--7-7-7-7-7-7-7-7-------|
a ---0-0-0-0-0-0-0-0--------------------5-5-5-5-5-5-5-5-------|
e ------------------------------------------------------------|

e ------------------------------|
b ------------------------------|
g ------------------------------|
d ------------------------------|              repeat throughout the song
a ----3--2--0--5--3--3--2-------|
e ------------------------------|






Like us on Facebook