Get Off Tab - Cinema Bizarre






Intro
|---------------------------------------------|
|---------------------------------------------|
|---------------------------------------------|
|----5--5--5--5--8--5--5--3--3--3--5--8--5----|
|----5--5--5--5--8--5--5--3--3--3--5--8--5----|
|----3--3--3--3--6--3--3--1--1--1--3--6--3----| x2


Verse
|---------------------------------------------|
|---------------------------------------------|
|---------------------------------------------|
|----------5--5-----------------5--5----------|
|----------5--5-----------------5--5----------|
|----------3--3-----------------3--3----------| x3

|---------------------------------------------|
|---------------------------------------------|
|---------------------------------------------|
|----5--5--5--5--8--5--5--3--3--3--5--8--5----|
|----5--5--5--5--8--5--5--3--3--3--5--8--5----|
|----3--3--3--3--6--3--3--1--1--1--3--6--3----| x2

|---------------------------------------------|
|---------------------------------------------|
|---------------------------------------------|
|----------5--5-----------------5--5----------|
|----------5--5-----------------5--5----------|
|----------3--3-----------------3--3----------| x3

|---------------------------------------------|
|---------------------------------------------|
|---------------------------------------------|
|----5--5--5--5--8--5--5--3--3--3--5--8--5----|
|----5--5--5--5--8--5--5--3--3--3--5--8--5----|
|----3--3--3--3--6--3--3--1--1--1--3--6--3----| x2


Chorus
|---------------------------------------------|
|---------------------------------------------|
|---------------------------------------------|
|----9-----5-----3-----4-----5-----7----------|
|----9-----5-----3-----4-----5-----7----------|
|----7-x8--3-x8--1-x4--2-x4--3-x4--5-x4-------| x2


Verse x1

Chorus x1

Bridge and Chorus without guitar

Chrous x1

ĂŽnscrie-te la newsletter


Join the ranks ! LIKE us on Facebook