I Dont Wanna Know Tab - Cinema Bizarre






Tuning: Standard

Song: I don't wanna know
Artist: Cinema Bizarre
Album: toyZ

Intro:
e|-------------------------------|
B|--13-12--------12-10-----------|
G|--------12-10--------9---------|
D|-------------------------------|
A|-------------------------------|
D|-------------------------------| x2

Verse  no guitar

Chorus:
e|--------------------------------------------------------------------|
B|--------------------------------------------------------------------|
G|------------------5-5-5-5-5-5-5-5-------------------7-7-7-7-7-7-7-7-|
D|-7-7-7-7-7-7-7-7--5-5-5-5-5-5-5-5--5-5-5-5-5-5-5-5--7-7-7-7-7-7-7-7-|
A|-7-7-7-7-7-7-7-7--3-3-3-3-3-3-3-3--5-5-5-5-5-5-5-5--5-5-5-5-5-5-5-5-|
D|-5-5-5-5-5-5-5-5-------------------3-3-3-3-3-3-3-3------------------| x4

Postchorus: 
e|--------------------------------------------------------------------|
B|--------------------------------------------------------------------|
G|------------------5-5-5-5-5-5-5-5-------------------7-7-7-7-7-7-7-7-|
D|-7-7-7-7-7-7-7-7--5-5-5-5-5-5-5-5--5-5-5-5-5-5-5-5--7-7-7-7-7-7-7-7-|
A|-7-7-7-7-7-7-7-7--3-3-3-3-3-3-3-3--5-5-5-5-5-5-5-5--5-5-5-5-5-5-5-5-|
D|-5-5-5-5-5-5-5-5-------------------3-3-3-3-3-3-3-3------------------| 

Varse - no guitar

Chorus:
e|--------------------------------------------------------------------|
B|--------------------------------------------------------------------|
G|------------------5-5-5-5-5-5-5-5-------------------7-7-7-7-7-7-7-7-|
D|-7-7-7-7-7-7-7-7--5-5-5-5-5-5-5-5--5-5-5-5-5-5-5-5--7-7-7-7-7-7-7-7-|
A|-7-7-7-7-7-7-7-7--3-3-3-3-3-3-3-3--5-5-5-5-5-5-5-5--5-5-5-5-5-5-5-5-|
D|-5-5-5-5-5-5-5-5-------------------3-3-3-3-3-3-3-3------------------| x4

Postchorus:
e|--------------------------------------------------------------------|
B|--------------------------------------------------------------------|
G|------------------5-5-5-5-5-5-5-5-------------------7-7-7-7-7-7-7-7-|
D|-7-7-7-7-7-7-7-7--5-5-5-5-5-5-5-5--5-5-5-5-5-5-5-5--7-7-7-7-7-7-7-7-|
A|-7-7-7-7-7-7-7-7--3-3-3-3-3-3-3-3--5-5-5-5-5-5-5-5--5-5-5-5-5-5-5-5-|
D|-5-5-5-5-5-5-5-5-------------------3-3-3-3-3-3-3-3------------------|

Break

Chorus:
e|--------------------------------------------------------------------|
B|--------------------------------------------------------------------|
G|------------------5-5-5-5-5-5-5-5-------------------7-7-7-7-7-7-7-7-|
D|-7-7-7-7-7-7-7-7--5-5-5-5-5-5-5-5--5-5-5-5-5-5-5-5--7-7-7-7-7-7-7-7-|
A|-7-7-7-7-7-7-7-7--3-3-3-3-3-3-3-3--5-5-5-5-5-5-5-5--5-5-5-5-5-5-5-5-|
D|-5-5-5-5-5-5-5-5-------------------3-3-3-3-3-3-3-3------------------| x4

ĂŽnscrie-te la newsletter


Join the ranks ! LIKE us on Facebook