The Other People Solo Tab - Cinema Bizarre






The other people Intro  Cinema Bizarre
By: unendlichkeitt@hotmail.com


e-----------------------------------------------------------|
B-----------------------------------------------------------|
D-----------------------------------------------------------|
G-----------------------------------------------------------|
A0-0-03-3-32-2-2-----------------------------------------|
D-------------------------------3-3-30-0-03-3-3-----------|


e-----------------------------------------------------------|
B-----------------------------------------------------------|
D-----------------------------------------------------------|
G-----------------------------------------------------------|
A--------------------------------3-3-32-2---------0--------|
D0-0-03-3-35-5-5-------------------------3---------------|

x2

Eso es todo! (:

abriliciouzyeah

ĂŽnscrie-te la newsletter


Join the ranks ! LIKE us on Facebook