Bullet And A Target Tab - Citizen Cope






 Standard Tuning
 Palm Muted

Verse:
     |-x-----x----x----x-----|
     |-1-----1----1----1-----|
     |-x-----x----x----x-----|
     |-x-----x----2----x-----|
     |-2-----x----3--0-2-----|
     |-3---0-1--0-x----x-----|

Chorus:
     |-x-----x----x----x-----|
     |-1-----1----1----1-----|
     |-x-----x----x----x-----|
     |-x-----x----2----x-----|
     |-2-----x----3--0-2-----|
     |-3---0-1--0-x----x-----|

Verse:
     |-x-----x----x----x-----|
     |-1-----1----1----1-----|
     |-x-----x----x----x-----|
     |-x-----x----2----x-----|
     |-2-----x----3--0-2-----|
     |-3---0-1--0-x----x-----|

Chorus:
     |-x-----x----x----x-----|
     |-1-----1----1----1-----|
     |-x-----x----x----x-----|
     |-x-----x----2----x-----|
     |-2-----x----3--0-2-----|
     |-3---0-1--0-x----x-----|

ĂŽnscrie-te la newsletter


Like us on Facebook