Hurricane Waters Tab - Citizen Cope






Artist - Citizen Cope
Song - Hurricane Water

Tabbed by - Mihon
Email - akissbeforeigo@mail.ru


love this song  =))
enjoy


     Dm7                 G7

-----8-------------------8------------------/
-----6-6-----------------6-6------------3---/
-----5-5-------4-4-------5-5-------4-4--4---/
-------7-------5-3---------7-------5-3--3---/
--5-------5----5-5----5-------5----5-5------/
------------3-------3-----------3-----------/


----10------------------10------------------/
----13--------12--------13---------12-------/
----10--------10--------10---------10-------/
--------12----12-------------12----12-------/
----------10-------------------10-----------/
-10----------------10-----------------------/



ĂŽnscrie-te la newsletter


Like us on Facebook