Pablo Picasso (ver2) Tab - Citizen Cope






Ok this is basically a three chord song until the end. I'm not sure of all the chord 
so I tabbed them out. They are labled 1,2,3.and at the end 4,5,6.


The verses are palm mute. The chorus he plays the whole chord.


  1(Fm)              2(?)            3(?)

e|-x------------------x---------------x------------------------------------|
B|-1------------------x---------------x------------------------------------|
G|-1------------------3---------------3------------------------------------|
D|-3------------------1---------------2------------------------------------|
A|-------------------------------------------------------------------------|
E|-------------------------------------------------------------------------|

So thats as close as I could get to the actual song. Very basic but must of his stuff is.


1(Fm)


The woman that i love is forty feet tall

2(?)                             3(?)


Shes a movie star shes all in tha paper and.....

Chorus is the same chords just play the whole chord.
But at the end it changes and they come in with the begining of another song and then go 
to the chorus.Those chords are tabbed out here as 4,5,6




       4                   5                      6


e|-----x--------------------x----------------------x-------------------------|
B|-----o--------------------o----------------------o-------------------------|
G|-----6--------------------11---------------------10------------------------|
D|-----7--------------------12---------------------12------------------------|
A|---------------------------------------------------------------------------|
E|---------------------------------------------------------------------------|

And thats it. You may need to play alonf with the song to get the rhythm

ĂŽnscrie-te la newsletter


Join the ranks ! LIKE us on Facebook