Sideways Tab - Citizen Cope






-------------------------------------------------------------------------------
     Sideways  Citizen Cope
-------------------------------------------------------------------------------
Tabbed by: Gulliver Perry
Email:archabarch@yahoo.com

Tuning: standard
 

e|---x---x---x---x----|
B|---x---x---x---x----|
G|---0---0---0---0----|
D|---5---7---7---7----|
A|---7---5---6---5----|
E|---x---x---x---x----|

e|---0---x---x---x----|
B|---1---x---x---x----|
G|---2---0---0---0----|
D|---2---5---7---7----|
A|---x---7---6---5----|
E|---x---x---x---x----|

e|---0---x---x------|
B|---1---x---x------|
G|---2---0---0------|
D|---2---7---7------|
A|---x---5---6------|
E|---x---x---x------|these feelings wont go away

ĂŽnscrie-te la newsletter


Join the ranks ! LIKE us on Facebook