Sons Gonna Rise Solo Bass Tab - Citizen Cope






Intro/Verse:

   Am              G               D               C       G
G|-----------------------------------------------------------------|
D|-----------------------------------------------------------------|
A|---------------------------------5-5-5-5-5-5-5-5-3-3-3-3---------|
E|-5-5-5-5-5-5-5-5-3-3-3-3-3-3-3-3-------------------------3-3-3-3-|


Chorus:

   Am              G               D               C       G
G|-----------------------------------------------------------------|
D|---------------------------------------------------------5-5-5-5-|
A|---------------------------------5-5-5-5-7-7-9-9-3-3-3-3---------|
E|-5-5-5-5-7-7-9-9-3-3-3-3-5-5-7-7---------------------------------|


Bridge:

   Am
G|---------------------------------|
D|---------------------------------|
A|-5-5-5-5-5-5-5-5-5-5-5-5-5-5-5-5-|
E|---------------------------------|


Into:          0:05   x1
Verse:         0:19   x2
Chorus:        0:41   x2
Bridge:        1:06   x1
Verse:         1:12   x2
Chorus:        1:36   x2
Bridge:        2:00   x2
PAUSE          2:12
Verse:         2:24   x1
Bridge:        2:37   x2 (then fade out)

ĂŽnscrie-te la newsletter


Like us on Facebook