Sons Gonna Rise Tab - Citizen Cope






I wanted to play this song so i went on youtube and watched
this one live acoustic session and sat down to learn it

http://www.youtube.com/watch?v=CRYN4oLGtAQ

He plays the same progression throughout his performance.
It sounds different than the recorded song but heres an
acoustic version...i believe its right after watching him
but lemme know what ya think


Intro

E---------------------------------------------------------|
B---------------------------------------------------------|
G----5---5---5---5---5p0--5p0--5p0--5p0-------------------|
D----7---7---7---7---7----7----7----7----repeat-----------|
A----x---x---x---x---x----x----x----x---------------------|
E----5---5---5---5---5----5----5----5---------------------|
  thumb the E string ^


Verse/Chorus        played kind of stecato-ish

E---------------------------------------------------------|
B------------------------------3-----------------1--------|
G----5------------5------------x-----------3-----2--------|
D----7------------5------------4-----------3-----3--------|
A----x------------7------------5-----------5-----3--------|
E----5------------5------------3-----------3-----1--------|


Like i said it sounds a lil different but watch the video of
his acoustic performance. Not about to do the solos haha

ĂŽnscrie-te la newsletter


Join the ranks ! LIKE us on Facebook