96 Quite Bitter Beings (ver2) Tab - Cky






Tuned down half step, with octave pedal ( / = slide )

INTRO
E-----------|--------------------|----------|---------------
B-----------|--------------------|----------|---------------
G-------4---|-------4-5-4--------|-----/7-5-|-4-2-0--/4-----
D-----5-----|-----5-------7-5-4--|---5------|------------5--
A---7----7--|---7----------------|-3--------|---------------
E-----------|--------------------|----------|---------------

CHORUS
E------------|----------------------------------------------
B------------|----------------------------------------------
G------------|----------------------------------------------
D---2--2--2--|---2--6--6--6---------------------------------
A---2--2--2--|---2--4--4--4---------------------------------
E---0--0--0--|---0------------------------------------------

The part where you can hadly make out the sounds is just a E5 power chord repeated.

INTERLUDE PART
E-----------|----------|----------|-------------------------
B-----------|----------|----------|-------------------------
G-----------|----------|----------|-------------------------
D-0-0-0-5-0-|----------|--5-5-5---|-------------------------
A-----------|--2-2-2---|--5-5-5---|--2-2-2------------------
E-----------|--0-0-0---|--3-3-3---|--0-0-0------------------


How the song is played (Just listen to it and you'll get it)

INTRO x8
CHROUS x ?
INTRO x2 
E5 POWER CHORD PART x2
INTERLUDE x1
E5 POWER CHORD PART x2
INTERLUDE x 2
INTRO x ??? ( Many times intil the song ends)

ĂŽnscrie-te la newsletter


Join the ranks ! LIKE us on Facebook