96 Quite Bitter Beings (ver3) Tab - Cky






CKY - 96 Quite Bitter Beings
Album: Vol. 1
Tuning: Eb Ab Db Gb Bb Eb
Tabbed By: Dean K. (projectwyze13@hotmail.com)

Intro/Main Riff
Eb------------------------------------------------
Bb------------------------------------------------
Gb----4---------4-5p4------------7-5--------------
Db--5---------5-------5-4-----5------7-9-5-9-5----
Ab7-----7---7-------------5-3---------------------
Eb------------------------------------------------

Riff 1
Eb------------------------------------------------
Bb--------------------------------------------------
Gb--------------------------------------------------
Db--2--2--2-----6-6-6---2--2--2-----6-6-6-----------
Ab--2--2--2-----4-4-4---2--2--2-----4-4-4-----------
Eb--0--0--0-----4-4-4---0--0--0-----4-4-4-----------

Riff 2
Eb--------------------------------------------------
Bb--------------------------------------------------
Gb--------------------------------------------------
Db--2--2--2-----6-6-6---2--2--2-----6-6-6-----------
Ab--2--2--2-----4-4-4---2--2--2-----4-4-4-----------
Eb--0--0--0-----4-4-4---0--0--0-----4-4-4-----------

Bridge
Eb---------------------------
Bb---------------------------
Gb---------------------------
Db-999999777777--------------
Ab-777777555555--------------
Eb-000000000000--------------

Verse 
Eb-------------------------------------
Bb-----------------------------------
Gb-----------------------------------
Db------5-0-2---------------5-0-2----
Ab-5-5---------------3-3-3-----------
Eb--------------0-0--0--------------0-0

Intro/Main Riff - 4x
Riff 1 - 3x
Intro/Main Riff - 4x
Riff 2 - 3x
Bridge - 6x
Verse - 2x
Bridge - 6x
Verse - 2x
Intro/Main Riff - 8x

ĂŽnscrie-te la newsletter


Like us on Facebook