96 Quite Bitter Beings Intro Tab - Cky







CKY,96 Quite Bitter Beings (Intro).
 Tabbed by Sam,sammy_5000@hotmail.com.
  
------------------------------------------------------
------------------------------------------------------
--------4------------4--5--4------------------5s7--5--
-----5------------5-----------5--4--------5-----------
---7------------7--------------------5--3-------------
------------0-----------------------------------------


----------------------

||----------------------------------------------------
||---------------------------------4------------------
||------------------------------------7--5--7s9--5----
||----------------------------------------------------
||----------------------------------------------------
||----------------------------------------------------

     thankyou              s=slide 
     
:: Ultimate Guitar Archive :: 
http://www.ultimate-guitar.com 




ĂŽnscrie-te la newsletter


Join the ranks ! LIKE us on Facebook