All Power To Slaves (ver2) Tab - Cky






-------------------------------------------------------------------------------
     All Power to Slaves - Band Name
-------------------------------------------------------------------------------
Tabbed by: kima
Email:

Tuning:

e|------------------------------------------------------------------------------------------|
B|------------------------------------------------------------------------------------------|
G|--------------------------------4---------------------------------------------------------|
D|----------------4---------4--6------8--4-----4--------------------------------------------|
A|----6--4--------------2-------------------6-----------------------------------------------|
E|-4--------7--4-----4--0-------------------------------------------------------------------|

e|------------------------------------------------------------------------------------------|
B|------------------------------------------------------------------------------------------|
G|-----------------------------------4-----6-4-8--------------------------------------------|
D|----------------6---------4--6--8----6-4--------------------------------------------------|
A|----6--4--------------4-------------------------------------------------------------------|
E|-4--------7--4-----4--2-------------------------------------------------------------------|

e|--------------------------------------------!---------------------------------------------|
B|--------------------------------------------!---------------------------------------------|
G|--------------------------------------------!---------------------------------------------|
D|--------4/6--4---------8--6------6----------!--------4/6--4--------8--6-----6-------------|
A|-2-2-2----------4/6-----------9-----9--6--9-!-4-4-4----------4/6---------9------9--6--9---|
E|--------------------------------------------!---------------------------------------------|

ĂŽnscrie-te la newsletter


Like us on Facebook