Barbara Jeans a*s Tab - Cky






----------------------------------------------------------------------------
     Barbara Jean's a*s
----------------------------------------------------------------------------
Song: Barbara Jean's a*s (Makes me Sick)
Album: Volume 2
Tabbed by: Craig D Shepherd
Email: craigdshepherd@hotmail.com
www.toay.tk  www.cky-toallofyou.tk
Tuning: Normal


e|-------------------------------------------------------------------------|
B|-------------------------------------------------------------------------|
G|-------------------------------------------------------------------------|
D|-------------------------------------------------------------------------|
A|-----6--5--6--5--6--5--6--5--6--5--6--5--6--5----------------------------|
E|----5--4--5--4--5--4--5--4--5--4--5--4--5--4-----------------------------|


       up on the rooftop...
e|----------------------|
B|----------------------|
G|----------------------|
D|----------------------|
A|----------------------|
E|---4754-346--5985794--|

    ho ho ho..
e|-------------------------------------------------------------------------|
B|-------------------------------------------------------------------------|
G|-------------------------------------------------------------------------|
D|------------------------7------------------------------------------------|
A|--------------------------67---------------------------------------------|
E|----458--565-4455456--5------789---888-8-6572----------------------------|


============================================================================

ĂŽnscrie-te la newsletter


Like us on Facebook