Disengage The Simulator Bass Tab - Cky






CKY - Disengage The Simulator
Dan (afi_rock@hotmail.com)


Here are all the riffs:

Main Part
G|--------------------       
D|-------------------- 
A|--------------------        
E|-0--0-0-0---0-0-----    

G|-------------------------------------------------
D|-------------------------------------------------
A|-4-4-4-4-4-4-2-2-2-2-2-2-0-0-0-0-0-0-2-2-2-2-2-2-
E|-------------------------------------------------

Chorus
G|---------------------------------
D|--------2------------------------
A|---------------0-1-2-2-2-1-1-0-0-
E|-0-------------------------------

Fill
G|----------------
D|----------------
A|-----7-----6----
E|-0-7---0-4------


Tab by dan b (afi_rock@hotmail.com)

ĂŽnscrie-te la newsletter


Like us on Facebook