Rio Bravo Bass Tab - Cky






Intro:(Repeat 2wice)
G:-------------------------------------------|
D:-7-6-5----------3--------------------------|
A:-------5--3-4-5---7-6-5--------------------|
D:------------------------7-5-6-7--7-6-5-3-0-|  

G:--------------------------------------------------|
D:-7-6-5----------3---------------------------------|
A:-------5--3-4-5---7-6-5--------------------------3|
D:------------------------7-5-6-7--7-6-5-3-0-3-4-5--|X1

G:-------------------|
D:-------------------|
A:-----------------3-|
D:-7-6-5-3-0-3-4-5---| X2
  

   BY gAz: not a big cky fan

ĂŽnscrie-te la newsletter


Join the ranks ! LIKE us on Facebook