Bankrobber Bass Tab - Clash






Bankrobber Bass Tablature
by the clash
Transcribed by:
Matt Schild (batmatt@holly.ColoState.EDU)

Here are the notes:

G-D-D-D-D-D G-D-D-D G-D-D-D-D-D-A-D

G-D-D-D-D-D G-D-D-D-D-D C D G-G-G-G-G
Pretty simple line to play

Here's the tab:

bass
G------------------------------------------------------
D------------------------------------------------------
A----5-5-5-5-5---5-5-5------5-5-5-5-5-0-----5-5-5-5-5--
E--3-----------3----------3-------------3--3-----------

bass
G------------------------------------------------------
D------------------------------------------------------
E---5-5-5-5-5--3--5------------------------------------
A-3------------------3-3-3-3-3-------------------------


ĂŽnscrie-te la newsletter


Join the ranks ! LIKE us on Facebook