Charlie Dont Surf Bass Tab - Clash






Charlie Don't Surf Bass Tablature
by the clash

Transcribed by: Kory (airsick@hotmail.com)

INTRO/CHORUS
G:----7-4-------------------------------------------------
D:--------------------------------------------------------
A:-5-------5/9-9-7-5--------------------------------------
E:--------------------------------------------------------

VERSE/CHORUS
G:--------------------------------------------------------
D:--------------------------------------------------------
A:-5-5-050--2-2-0-----5-5-050--2-2-0----------------------
E:---------------2------------------2---------------------


G:--------------------------------------------------------
D:--------------------------------------------------------
A:-5-5-0567-----------------------------------------------
E:----------0--2-2---2-2----------------------------------

Note: During the chorus, both the intro riff and verse riff are played, 
though I didn't tab out when. You should be able to hear it.


ĂŽnscrie-te la newsletter


Like us on Facebook