Londons Burning (ver3) Bass Tab - Clash






Song: Londons Burning
Artist: The Clash
Tabbed by: akaDan (akadansmith@gmail.com)
Tuning: Standard
Credit: Jones/Strummer
Bassist: Paul Simonon

Intro

G|------------------------------|
D|------------------------------|
A|------------------------------|
E|3-3-3-3-3--------3-3-3-3-3-3-3|

Chorus

G|----------------------------------|
D|----------------------------------|
A|------------------3-3-3-3--5-5-5-5|
E|3-3-3-3--1-1-1-1------------------|

Verse

G|-------------------------------------------------|
D|-----------3---------------3---------------3-----|
A|---0---033--53-----0---033--53-----0---033--53---|
E|33--11--------5333--11--------5333--11--------533|

Outro Chorus

G|----------------------------------|
D|----------------------------------|
A|------------------5-5-5-5--7-7-7-7|
E|5-5-5-5--3-3-3-3------------------|

Outro

G|------------------|
D|------------------|
A|------------------|
E|3-3-3-3-3--------3|


Pregression:

Intro
Chorus  x4
Verse
Chorus  x4
Verse
Chorus  x4
Verse
Chorus  x4
Outro Chorus - x8
Outro

ĂŽnscrie-te la newsletter


Like us on Facebook