Magnificent Seven (ver3) Bass Tab - Clash






Intro/Lead In/Outro
|-5-------------------------|
|---7-5--------------7-7----|
|-------7-5-----------------|
|-----------7-3-5-5---------|

Verse/Chorus
|-----------------5-----------------------------|
|---------7---5-7-------------------------------|
|-----------7----------5-5----5-5-3----5-5-3----|
|-5--5------------------------------------------|



ĂŽnscrie-te la newsletter


Like us on Facebook