Magnificent Seven Bass Tab - Clash






Magnificent Seven Bass Tablature
by the clash
Transcribed by:
Aaron Freeman
aaronf@cencom.net

Intro:
-2-0----------------------------------------------------------------
-----2-0------------------------------------------------------------
---------3-0---0----------------------------------------------------
-------------3------------------------------------------------------



Everything else:
----------------5--------------------------------------------------
--------7-7-5-7----------------------------------------------------
--0--0-------------5-5--5-5-3--5-5-3------------------------------
-------------------------------------------------------------------


ĂŽnscrie-te la newsletter


Like us on Facebook