Pressure Drop Bass Tab - Clash






The Clash
Pressure Drop

-----------------------------------------------|
----------------6--9-9-9---4--7-7-7------------|
----4--7-7-7--7----------5------------4--7-7-7-|
--5---------------------------------5----------|

-----------------------------------------------|
----------------6--9-9-9---4--7-7-7------------|
----4--7-7-7--7----------5------------4--7-7-7-|
--5---------------------------------5----------|

ĂŽnscrie-te la newsletter


Like us on Facebook