Prisoner Tab - Clash






-------------------------------------------------------------------------------
     THE PRISONER - The Clash
-------------------------------------------------------------------------------
Tabbed by: dave
Email: bigdada@punchmyvagina.com

Tuning:standard tuning

First tab, but I think it's damn fine. Listen to the song for timing.

Verses                   x2
e|------------------------|--------------------------------------------------|
B|----5/7------------7-5--|-----7^-----7^-----7^-----7^-----7^-----7^--------|
G|-5--------5-6-6-6-------|-4/5----4/5----4/5----4/5----4/5----4/5----5/7-7~-|
D|------------------------|--------------------------------------------------|
A|------------------------|--------------------------------------------------|
E|------------------------|--------------------------------------------------|

Chorus                                                  x3
e|---------|----------------|-----------------------------|------------------|
B|-------7-|------------7-8-|--7^--75--------------------|-7^--75--5/10-10~|
G|--------7|--------5-6-----|-----------6~--5~------------|------------------|
D|---------|--6^------------|-----------------------------|------------------|
A|---------|----------------|-----------------------------|------------------|
E|---------|----------------|-----------------------------|------------------|
| /  slide up
|   slide down
| h  hammer-on
| p  pull-off
| ~  vibrato
| +  harmonic
| x  Mute note
===============================================================================

ĂŽnscrie-te la newsletter


Like us on Facebook