Rudie Cant Fail Bass Tab - Clash






Song: Rudie Can't Fail
Band: the Clash
Album: London Calling
Basist: Paul Simonon
Comments: Nice 'n simple scale tune. Have some fun with
it.


Verse/Intro:
G*----------------*----------------*----------------*
D*------2---------*------2---------*------2---------*
A*0-004-----0-0---*0-004-------0---*0-004-----------*
E*----------------*----------1-----*----------2-2---*

G*----------------*----------------*
D*----2-4-----2---*----2-4---------*
A*0-4-----0-4---4-*0-4-------0-----*
E*----------------*------------1---*


Chorus:
G*----------------*----------------*
D*--------2-------*4---------------*
A*0---------------*----------------*
E*----------------*----------------* Repeat as needed


Tabbed by Steven Snider
Peavy_BZ_100@hotmail.com

ĂŽnscrie-te la newsletter


Like us on Facebook