Train In Vain Bass Tab - Clash






Train In Vain Bass Tablature
by the clash

Transcribed by: Andrew Schmidt (HerrDonut26@mail.utexas.edu)

The timing on this song is quite complicated to put into tablature,
so the spacing of the notes is important when reading this tab. The lyrics 
are only there to guide you, they are not timed to scale.

Intro/main riff

G------------------------------------------------------------------------
D------------------------------------------------------------------------
A-------5-4-0-------------5-4-0----------5-4-0-----------5-4-0-----------
E-345--------------345------------345---------------345-----------345----


You said you loved me.....   
G--------------------------------------
D--------------------------------------
A---5-5-4-2--------5-4-0-----5-4-0-----
E------------345---------345---------345


But you dont understand my point of view....

G----7-5-4-2-----------
D--------------0-------
A--5--------------2345-  (back to main riff)
E----------------------


ĂŽnscrie-te la newsletter


Like us on Facebook